ISO-10303-21;
HEADER;
FILE_DESCRIPTION (( 'STEP AP203' ),
    '1' );
FILE_NAME ('Q-QZWP-R4-12.7-2020-M.STEP',
    '2020-12-23T01:23:19',
    ( '' ),
    ( '' ),
    'SwSTEP 2.0',
    'SolidWorks 2020',
    '' );
FILE_SCHEMA (( 'CONFIG_CONTROL_DESIGN' ));
ENDSEC;

DATA;
#1 = FACE_OUTER_BOUND ( 'NONE', #134, .T. ) ;
#2 = CALENDAR_DATE ( 2020, 23, 12 ) ;
#3 = EDGE_CURVE ( 'NONE', #88, #315, #226, .T. ) ;
#4 = EDGE_LOOP ( 'NONE', ( #86, #195 ) ) ;
#5 = VECTOR ( 'NONE', #70, 1000.000000000000000 ) ;
#6 = LOCAL_TIME ( 9, 23, 19.00000000000000000, #334 ) ;
#7 = EDGE_LOOP ( 'NONE', ( #169, #167 ) ) ;
#8 = EDGE_LOOP ( 'NONE', ( #222, #288, #261, #319 ) ) ;
#9 = VERTEX_POINT ( 'NONE', #97 ) ;
#10 = EDGE_LOOP ( 'NONE', ( #284, #139, #221, #33 ) ) ;
#11 = CARTESIAN_POINT ( 'NONE',  ( 3.000000000000000000, 12.69999999999999929, 0.000000000000000000 ) ) ;
#12 = PLANE ( 'NONE',  #155 ) ;
#13 = ADVANCED_FACE ( 'NONE', ( #248 ), #175, .T. ) ;
#14 = CARTESIAN_POINT ( 'NONE',  ( -1.614212418857619014, 0.000000000000000000, 0.000000000000000000 ) ) ;
#15 = DIRECTION ( 'NONE',  ( 0.000000000000000000, 0.000000000000000000, 1.000000000000000000 ) ) ;
#16 = CARTESIAN_POINT ( 'NONE',  ( -1.614212418857619014, 0.000000000000000000, 0.000000000000000000 ) ) ;
#17 = EDGE_CURVE ( 'NONE', #114, #316, #292, .T. ) ;
#18 = CARTESIAN_POINT ( 'NONE',  ( -1.614212418857619014, 0.000000000000000000, 0.000000000000000000 ) ) ;
#19 = DIRECTION ( 'NONE',  ( -1.000000000000000000, -0.000000000000000000, -0.000000000000000000 ) ) ;
#20 = EDGE_CURVE ( 'NONE', #163, #60, #37, .T. ) ;
#21 = APPLICATION_PROTOCOL_DEFINITION ( 'international standard', 'config_control_design', 1994, #278 ) ;
#22 = DIRECTION ( 'NONE',  ( -1.000000000000000000, -0.000000000000000000, -0.000000000000000000 ) ) ;
#23 = SECURITY_CLASSIFICATION_LEVEL ( 'unclassified' ) ;
#24 = DIRECTION ( 'NONE',  ( 0.000000000000000000, 0.000000000000000000, 1.000000000000000000 ) ) ;
#25 = VECTOR ( 'NONE', #147, 1000.000000000000000 ) ;
#26 = APPROVAL_ROLE ( '' ) ;
#27 = DATE_AND_TIME ( #215, #267 ) ;
#28 = EDGE_CURVE ( 'NONE', #165, #9, #188, .T. ) ;
#29 = ORIENTED_EDGE ( 'NONE', *, *, #54, .T. ) ;
#30 = PERSON_AND_ORGANIZATION ( #62, #318 ) ;
#31 = ORIENTED_EDGE ( 'NONE', *, *, #140, .F. ) ;
#32 = CIRCLE ( 'NONE', #249, 12.69999999999999929 ) ;
#33 = ORIENTED_EDGE ( 'NONE', *, *, #20, .F. ) ;
#34 = ORIENTED_EDGE ( 'NONE', *, *, #28, .F. ) ;
#35 = VECTOR ( 'NONE', #182, 1000.000000000000000 ) ;
#36 = AXIS2_PLACEMENT_3D ( 'NONE', #270, #65, #41 ) ;
#37 = LINE ( 'NONE', #246, #327 ) ;
#38 = EDGE_CURVE ( 'NONE', #320, #264, #298, .T. ) ;
#39 = CARTESIAN_POINT ( 'NONE',  ( -1.614212418857619014, 0.000000000000000000, 0.000000000000000000 ) ) ;
#40 = DIRECTION ( 'NONE',  ( 0.000000000000000000, 0.000000000000000000, 1.000000000000000000 ) ) ;
#41 = DIRECTION ( 'NONE',  ( 0.000000000000000000, 0.000000000000000000, 1.000000000000000000 ) ) ;
#42 = DIRECTION ( 'NONE',  ( 0.000000000000000000, 0.000000000000000000, -1.000000000000000000 ) ) ;
#43 = CARTESIAN_POINT ( 'NONE',  ( -2.999999999999999556, 7.776507174585692163E-16, -6.349999999999999645 ) ) ;
#44 = ADVANCED_FACE ( 'NONE', ( #290 ), #12, .F. ) ;
#45 = DIRECTION ( 'NONE',  ( -1.000000000000000000, -0.000000000000000000, -0.000000000000000000 ) ) ;
#46 =( LENGTH_UNIT ( ) NAMED_UNIT ( * ) SI_UNIT ( .MILLI., .METRE. ) );
#47 = EDGE_CURVE ( 'NONE', #60, #316, #32, .T. ) ;
#48 = AXIS2_PLACEMENT_3D ( 'NONE', #16, #151, #152 ) ;
#49 = CC_DESIGN_APPROVAL ( #235, ( #328 ) ) ;
#50 = PLANE ( 'NONE',  #74 ) ;
#51 = PERSON_AND_ORGANIZATION ( #62, #318 ) ;
#52 = CARTESIAN_POINT ( 'NONE',  ( 1.500000000000000888, 0.000000000000000000, 6.349999999999999645 ) ) ;
#53 = AXIS2_PLACEMENT_3D ( 'NONE', #295, #223, #197 ) ;
#54 = EDGE_CURVE ( 'NONE', #9, #264, #202, .T. ) ;
#55 = COORDINATED_UNIVERSAL_TIME_OFFSET ( 8, 0, .AHEAD. ) ;
#56 = EDGE_LOOP ( 'NONE', ( #57, #58 ) ) ;
#57 = ORIENTED_EDGE ( 'NONE', *, *, #275, .F. ) ;
#58 = ORIENTED_EDGE ( 'NONE', *, *, #3, .F. ) ;
#59 = ORIENTED_EDGE ( 'NONE', *, *, #153, .T. ) ;
#60 = VERTEX_POINT ( 'NONE', #101 ) ;
#61 = DIRECTION ( 'NONE',  ( -1.000000000000000000, -0.000000000000000000, -0.000000000000000000 ) ) ;
#62 = PERSON ( 'UNSPECIFIED', 'UNSPECIFIED', 'UNSPECIFIED', ('UNSPECIFIED'), ('UNSPECIFIED'), ('UNSPECIFIED') ) ;
#63 = DIRECTION ( 'NONE',  ( 0.000000000000000000, 0.000000000000000000, 1.000000000000000000 ) ) ;
#64 = FACE_OUTER_BOUND ( 'NONE', #7, .T. ) ;
#65 = DIRECTION ( 'NONE',  ( -1.000000000000000000, -0.000000000000000000, -0.000000000000000000 ) ) ;
#66 = DIRECTION ( 'NONE',  ( -1.000000000000000000, -0.000000000000000000, -0.000000000000000000 ) ) ;
#67 = ADVANCED_FACE ( 'NONE', ( #245 ), #94, .F. ) ;
#68 = FACE_OUTER_BOUND ( 'NONE', #141, .T. ) ;
#69 = CIRCLE ( 'NONE', #81, 12.69999999999999929 ) ;
#70 = DIRECTION ( 'NONE',  ( -1.000000000000000000, -0.000000000000000000, -0.000000000000000000 ) ) ;
#71 = DIRECTION ( 'NONE',  ( -1.000000000000000000, -0.000000000000000000, -0.000000000000000000 ) ) ;
#72 = APPROVAL ( #258, 'UNSPECIFIED' ) ;
#73 = AXIS2_PLACEMENT_3D ( 'NONE', #200, #247, #230 ) ;
#74 = AXIS2_PLACEMENT_3D ( 'NONE', #79, #309, #280 ) ;
#75 =( NAMED_UNIT ( * ) PLANE_ANGLE_UNIT ( ) SI_UNIT ( $, .RADIAN. ) );
#76 = CYLINDRICAL_SURFACE ( 'NONE', #220, 12.69999999999999929 ) ;
#77 = DATE_AND_TIME ( #107, #6 ) ;
#78 = CC_DESIGN_PERSON_AND_ORGANIZATION_ASSIGNMENT ( #277, #160, ( #268 ) ) ;
#79 = CARTESIAN_POINT ( 'NONE',  ( -1.500000000000000444, 6.349999999999999645, 0.000000000000000000 ) ) ;
#80 = COORDINATED_UNIVERSAL_TIME_OFFSET ( 8, 0, .AHEAD. ) ;
#81 = AXIS2_PLACEMENT_3D ( 'NONE', #325, #66, #180 ) ;
#82 = CARTESIAN_POINT ( 'NONE',  ( 1.500000000000000888, 7.776507174585692163E-16, -6.349999999999999645 ) ) ;
#83 = LOCAL_TIME ( 9, 23, 19.00000000000000000, #80 ) ;
#84 = LOCAL_TIME ( 9, 23, 19.00000000000000000, #217 ) ;
#85 = APPROVAL_DATE_TIME ( #312, #99 ) ;
#86 = ORIENTED_EDGE ( 'NONE', *, *, #38, .F. ) ;
#87 = PERSON_AND_ORGANIZATION ( #62, #318 ) ;
#88 = VERTEX_POINT ( 'NONE', #43 ) ;
#89 = ORIENTED_EDGE ( 'NONE', *, *, #90, .T. ) ;
#90 = EDGE_CURVE ( 'NONE', #192, #315, #252, .T. ) ;
#91 = ORIENTED_EDGE ( 'NONE', *, *, #103, .F. ) ;
#92 = ORIENTED_EDGE ( 'NONE', *, *, #54, .F. ) ;
#93 = EDGE_CURVE ( 'NONE', #114, #163, #69, .T. ) ;
#94 = CYLINDRICAL_SURFACE ( 'NONE', #48, 6.349999999999999645 ) ;
#95 = AXIS2_PLACEMENT_3D ( 'NONE', #11, #272, #181 ) ;
#96 = CC_DESIGN_SECURITY_CLASSIFICATION ( #311, ( #328 ) ) ;
#97 = CARTESIAN_POINT ( 'NONE',  ( 3.000000000000000888, 7.776507174585692163E-16, -6.349999999999999645 ) ) ;
#98 = CARTESIAN_POINT ( 'NONE',  ( -1.614212418857619014, 7.776507174585692163E-16, -6.349999999999999645 ) ) ;
#99 = APPROVAL ( #234, 'UNSPECIFIED' ) ;
#100 = CARTESIAN_POINT ( 'NONE',  ( 3.000000000000000000, 1.555301434917138433E-15, -12.69999999999999929 ) ) ;
#101 = CARTESIAN_POINT ( 'NONE',  ( -3.000000000000000000, 0.000000000000000000, 12.69999999999999929 ) ) ;
#102 = DIRECTION ( 'NONE',  ( -1.000000000000000000, -0.000000000000000000, -0.000000000000000000 ) ) ;
#103 = EDGE_CURVE ( 'NONE', #192, #219, #198, .T. ) ;
#104 = APPROVAL_PERSON_ORGANIZATION ( #256, #235, #190 ) ;
#105 = CALENDAR_DATE ( 2020, 23, 12 ) ;
#106 = FACE_OUTER_BOUND ( 'NONE', #282, .T. ) ;
#107 = CALENDAR_DATE ( 2020, 23, 12 ) ;
#108 = DIRECTION ( 'NONE',  ( 0.000000000000000000, 0.000000000000000000, 1.000000000000000000 ) ) ;
#109 = PERSON_AND_ORGANIZATION_ROLE ( 'creator' ) ;
#110 = CLOSED_SHELL ( 'NONE', ( #13, #177, #127, #44, #67, #205, #193, #269, #150, #314 ) ) ;
#111 = ORIENTED_EDGE ( 'NONE', *, *, #294, .T. ) ;
#112 = ORIENTED_EDGE ( 'NONE', *, *, #17, .F. ) ;
#113 = ORIENTED_EDGE ( 'NONE', *, *, #93, .T. ) ;
#114 = VERTEX_POINT ( 'NONE', #100 ) ;
#115 = CIRCLE ( 'NONE', #231, 6.349999999999999645 ) ;
#116 = EDGE_LOOP ( 'NONE', ( #31, #29, #138, #285 ) ) ;
#117 = CARTESIAN_POINT ( 'NONE',  ( -3.000000000000000000, 0.000000000000000000, 0.000000000000000000 ) ) ;
#118 = CARTESIAN_POINT ( 'NONE',  ( -1.614212418857619014, 0.000000000000000000, 0.000000000000000000 ) ) ;
#119 = DIRECTION ( 'NONE',  ( 0.000000000000000000, 0.000000000000000000, 1.000000000000000000 ) ) ;
#120 = CARTESIAN_POINT ( 'NONE',  ( -1.500000000000000444, 7.776507174585692163E-16, -6.349999999999999645 ) ) ;
#121 = CC_DESIGN_APPROVAL ( #99, ( #311 ) ) ;
#122 = CARTESIAN_POINT ( 'NONE',  ( -1.500000000000000444, 0.000000000000000000, 6.349999999999999645 ) ) ;
#123 = DIRECTION ( 'NONE',  ( 1.000000000000000000, 0.000000000000000000, 0.000000000000000000 ) ) ;
#124 = CARTESIAN_POINT ( 'NONE',  ( -3.000000000000000000, 0.000000000000000000, 0.000000000000000000 ) ) ;
#125 = AXIS2_PLACEMENT_3D ( 'NONE', #18, #293, #15 ) ;
#126 = LOCAL_TIME ( 9, 23, 19.00000000000000000, #260 ) ;
#127 = ADVANCED_FACE ( 'NONE', ( #204 ), #229, .F. ) ;
#128 = CARTESIAN_POINT ( 'NONE',  ( 0.000000000000000000, 0.000000000000000000, 0.000000000000000000 ) ) ;
#129 = PERSON_AND_ORGANIZATION_ROLE ( 'classification_officer' ) ;
#130 = VECTOR ( 'NONE', #154, 1000.000000000000000 ) ;
#131 = DIRECTION ( 'NONE',  ( -1.000000000000000000, -0.000000000000000000, -0.000000000000000000 ) ) ;
#132 = APPROVAL_ROLE ( '' ) ;
#133 = PERSON_AND_ORGANIZATION_ROLE ( 'creator' ) ;
#134 = EDGE_LOOP ( 'NONE', ( #112, #113, #262, #263 ) ) ;
#135 = PERSON_AND_ORGANIZATION ( #62, #318 ) ;
#136 = AXIS2_PLACEMENT_3D ( 'NONE', #14, #71, #250 ) ;
#137 = EDGE_LOOP ( 'NONE', ( #287, #237 ) ) ;
#138 = ORIENTED_EDGE ( 'NONE', *, *, #307, .T. ) ;
#139 = ORIENTED_EDGE ( 'NONE', *, *, #17, .T. ) ;
#140 = EDGE_CURVE ( 'NONE', #9, #165, #172, .T. ) ;
#141 = EDGE_LOOP ( 'NONE', ( #170, #242, #89, #239 ) ) ;
#142 = DIRECTION ( 'NONE',  ( -1.000000000000000000, 0.000000000000000000, -0.000000000000000000 ) ) ;
#143 = CARTESIAN_POINT ( 'NONE',  ( -3.000000000000000000, 6.349999999999999645, 0.000000000000000000 ) ) ;
#144 = PRODUCT_RELATED_PRODUCT_CATEGORY ( 'detail', '', ( #268 ) ) ;
#145 = DIRECTION ( 'NONE',  ( -1.000000000000000000, -0.000000000000000000, -0.000000000000000000 ) ) ;
#146 = DIRECTION ( 'NONE',  ( 0.000000000000000000, 0.000000000000000000, -1.000000000000000000 ) ) ;
#147 = DIRECTION ( 'NONE',  ( -1.000000000000000000, -0.000000000000000000, -0.000000000000000000 ) ) ;
#148 = APPLICATION_CONTEXT ( 'configuration controlled 3d designs of mechanical parts and assemblies' ) ;
#149 = AXIS2_PLACEMENT_3D ( 'NONE', #322, #123, #146 ) ;
#150 = ADVANCED_FACE ( 'NONE', ( #64, #329 ), #206, .F. ) ;
#151 = DIRECTION ( 'NONE',  ( -1.000000000000000000, -0.000000000000000000, -0.000000000000000000 ) ) ;
#152 = DIRECTION ( 'NONE',  ( 0.000000000000000000, 0.000000000000000000, 1.000000000000000000 ) ) ;
#153 = EDGE_CURVE ( 'NONE', #316, #60, #276, .T. ) ;
#154 = DIRECTION ( 'NONE',  ( -1.000000000000000000, -0.000000000000000000, -0.000000000000000000 ) ) ;
#155 = AXIS2_PLACEMENT_3D ( 'NONE', #171, #142, #244 ) ;
#156 = DIRECTION ( 'NONE',  ( 0.000000000000000000, 0.000000000000000000, 1.000000000000000000 ) ) ;
#157 = CC_DESIGN_PERSON_AND_ORGANIZATION_ASSIGNMENT ( #51, #212, ( #328 ) ) ;
#158 = LINE ( 'NONE', #335, #130 ) ;
#159 = DATE_AND_TIME ( #210, #84 ) ;
#160 = PERSON_AND_ORGANIZATION_ROLE ( 'design_owner' ) ;
#161 = ADVANCED_BREP_SHAPE_REPRESENTATION ( 'Q-QZWP-R4-12.7-2020-M', ( #306, #299 ), #189 ) ;
#162 = CARTESIAN_POINT ( 'NONE',  ( 3.000000000000000000, 0.000000000000000000, 0.000000000000000000 ) ) ;
#163 = VERTEX_POINT ( 'NONE', #207 ) ;
#164 = PERSON_AND_ORGANIZATION ( #62, #318 ) ;
#165 = VERTEX_POINT ( 'NONE', #301 ) ;
#166 = VECTOR ( 'NONE', #178, 1000.000000000000000 ) ;
#167 = ORIENTED_EDGE ( 'NONE', *, *, #93, .F. ) ;
#168 = CC_DESIGN_APPROVAL ( #72, ( #254 ) ) ;
#169 = ORIENTED_EDGE ( 'NONE', *, *, #333, .F. ) ;
#170 = ORIENTED_EDGE ( 'NONE', *, *, #240, .F. ) ;
#171 = CARTESIAN_POINT ( 'NONE',  ( 1.500000000000000444, 6.349999999999999645, 0.000000000000000000 ) ) ;
#172 = CIRCLE ( 'NONE', #238, 6.349999999999999645 ) ;
#173 = APPROVAL_PERSON_ORGANIZATION ( #30, #99, #26 ) ;
#174 = PRODUCT_DEFINITION_SHAPE ( 'NONE', 'NONE',  #254 ) ;
#175 = CYLINDRICAL_SURFACE ( 'NONE', #304, 12.69999999999999929 ) ;
#176 = DIRECTION ( 'NONE',  ( 1.000000000000000000, 0.000000000000000000, 0.000000000000000000 ) ) ;
#177 = ADVANCED_FACE ( 'NONE', ( #297 ), #179, .F. ) ;
#178 = DIRECTION ( 'NONE',  ( -1.000000000000000000, -0.000000000000000000, -0.000000000000000000 ) ) ;
#179 = CYLINDRICAL_SURFACE ( 'NONE', #136, 6.349999999999999645 ) ;
#180 = DIRECTION ( 'NONE',  ( 0.000000000000000000, 0.000000000000000000, 1.000000000000000000 ) ) ;
#181 = DIRECTION ( 'NONE',  ( -0.000000000000000000, 0.000000000000000000, 1.000000000000000000 ) ) ;
#182 = DIRECTION ( 'NONE',  ( -1.000000000000000000, -0.000000000000000000, -0.000000000000000000 ) ) ;
#183 = CC_DESIGN_PERSON_AND_ORGANIZATION_ASSIGNMENT ( #279, #133, ( #328 ) ) ;
#184 = MECHANICAL_CONTEXT ( 'NONE', #278, 'mechanical' ) ;
#185 = CARTESIAN_POINT ( 'NONE',  ( -3.000000000000000000, 1.555301434917138433E-15, -12.69999999999999929 ) ) ;
#186 = APPROVAL_DATE_TIME ( #187, #72 ) ;
#187 = DATE_AND_TIME ( #105, #126 ) ;
#188 = CIRCLE ( 'NONE', #36, 6.349999999999999645 ) ;
#189 =( GEOMETRIC_REPRESENTATION_CONTEXT ( 3 ) GLOBAL_UNCERTAINTY_ASSIGNED_CONTEXT ( ( #255 ) ) GLOBAL_UNIT_ASSIGNED_CONTEXT ( ( #46, #75, #331 ) ) REPRESENTATION_CONTEXT ( 'NONE', 'WORKASPACE' ) );
#190 = APPROVAL_ROLE ( '' ) ;
#191 = ORIENTED_EDGE ( 'NONE', *, *, #47, .T. ) ;
#192 = VERTEX_POINT ( 'NONE', #122 ) ;
#193 = ADVANCED_FACE ( 'NONE', ( #251, #228 ), #274, .F. ) ;
#194 = AXIS2_PLACEMENT_3D ( 'NONE', #214, #131, #259 ) ;
#195 = ORIENTED_EDGE ( 'NONE', *, *, #307, .F. ) ;
#196 = CARTESIAN_POINT ( 'NONE',  ( 1.500000000000000888, 0.000000000000000000, 0.000000000000000000 ) ) ;
#197 = DIRECTION ( 'NONE',  ( 0.000000000000000000, 0.000000000000000000, 1.000000000000000000 ) ) ;
#198 = CIRCLE ( 'NONE', #73, 6.349999999999999645 ) ;
#199 = CIRCLE ( 'NONE', #305, 12.69999999999999929 ) ;
#200 = CARTESIAN_POINT ( 'NONE',  ( -1.500000000000000444, 0.000000000000000000, 0.000000000000000000 ) ) ;
#201 = CC_DESIGN_PERSON_AND_ORGANIZATION_ASSIGNMENT ( #164, #129, ( #311 ) ) ;
#202 = LINE ( 'NONE', #326, #5 ) ;
#203 = DIRECTION ( 'NONE',  ( 0.000000000000000000, 0.000000000000000000, 1.000000000000000000 ) ) ;
#204 = FACE_OUTER_BOUND ( 'NONE', #116, .T. ) ;
#205 = ADVANCED_FACE ( 'NONE', ( #68 ), #296, .F. ) ;
#206 = PLANE ( 'NONE',  #95 ) ;
#207 = CARTESIAN_POINT ( 'NONE',  ( 3.000000000000000000, 0.000000000000000000, 12.69999999999999929 ) ) ;
#208 = DIRECTION ( 'NONE',  ( -1.000000000000000000, -0.000000000000000000, -0.000000000000000000 ) ) ;
#209 = DIRECTION ( 'NONE',  ( 1.000000000000000000, 0.000000000000000000, 0.000000000000000000 ) ) ;
#210 = CALENDAR_DATE ( 2020, 23, 12 ) ;
#211 = CARTESIAN_POINT ( 'NONE',  ( 1.500000000000000888, 0.000000000000000000, 0.000000000000000000 ) ) ;
#212 = PERSON_AND_ORGANIZATION_ROLE ( 'design_supplier' ) ;
#213 = EDGE_CURVE ( 'NONE', #219, #192, #286, .T. ) ;
#214 = CARTESIAN_POINT ( 'NONE',  ( -2.999999999999999556, 0.000000000000000000, 0.000000000000000000 ) ) ;
#215 = CALENDAR_DATE ( 2020, 23, 12 ) ;
#216 = ORIENTED_EDGE ( 'NONE', *, *, #213, .F. ) ;
#217 = COORDINATED_UNIVERSAL_TIME_OFFSET ( 8, 0, .AHEAD. ) ;
#218 = EDGE_LOOP ( 'NONE', ( #92, #34, #111, #241 ) ) ;
#219 = VERTEX_POINT ( 'NONE', #120 ) ;
#220 = AXIS2_PLACEMENT_3D ( 'NONE', #303, #19, #108 ) ;
#221 = ORIENTED_EDGE ( 'NONE', *, *, #47, .F. ) ;
#222 = ORIENTED_EDGE ( 'NONE', *, *, #103, .T. ) ;
#223 = DIRECTION ( 'NONE',  ( -1.000000000000000000, -0.000000000000000000, -0.000000000000000000 ) ) ;
#224 = DIRECTION ( 'NONE',  ( -1.000000000000000000, -0.000000000000000000, -0.000000000000000000 ) ) ;
#225 = DIRECTION ( 'NONE',  ( 0.000000000000000000, 0.000000000000000000, 1.000000000000000000 ) ) ;
#226 = CIRCLE ( 'NONE', #53, 6.349999999999999645 ) ;
#227 = LINE ( 'NONE', #98, #25 ) ;
#228 = FACE_OUTER_BOUND ( 'NONE', #313, .T. ) ;
#229 = CYLINDRICAL_SURFACE ( 'NONE', #125, 6.349999999999999645 ) ;
#230 = DIRECTION ( 'NONE',  ( 0.000000000000000000, 0.000000000000000000, -1.000000000000000000 ) ) ;
#231 = AXIS2_PLACEMENT_3D ( 'NONE', #211, #208, #156 ) ;
#232 = SHAPE_DEFINITION_REPRESENTATION ( #174, #161 ) ;
#233 = CARTESIAN_POINT ( 'NONE',  ( -2.999999999999999556, 0.000000000000000000, 6.349999999999999645 ) ) ;
#234 = APPROVAL_STATUS ( 'not_yet_approved' ) ;
#235 = APPROVAL ( #236, 'UNSPECIFIED' ) ;
#236 = APPROVAL_STATUS ( 'not_yet_approved' ) ;
#237 = ORIENTED_EDGE ( 'NONE', *, *, #140, .T. ) ;
#238 = AXIS2_PLACEMENT_3D ( 'NONE', #271, #45, #203 ) ;
#239 = ORIENTED_EDGE ( 'NONE', *, *, #275, .T. ) ;
#240 = EDGE_CURVE ( 'NONE', #219, #88, #227, .T. ) ;
#241 = ORIENTED_EDGE ( 'NONE', *, *, #38, .T. ) ;
#242 = ORIENTED_EDGE ( 'NONE', *, *, #213, .T. ) ;
#243 = CC_DESIGN_DATE_AND_TIME_ASSIGNMENT ( #159, #283, ( #254 ) ) ;
#244 = DIRECTION ( 'NONE',  ( -0.000000000000000000, 0.000000000000000000, 1.000000000000000000 ) ) ;
#245 = FACE_OUTER_BOUND ( 'NONE', #218, .T. ) ;
#246 = CARTESIAN_POINT ( 'NONE',  ( -1.614212418857619014, 0.000000000000000000, 12.69999999999999929 ) ) ;
#247 = DIRECTION ( 'NONE',  ( 1.000000000000000000, 0.000000000000000000, 0.000000000000000000 ) ) ;
#248 = FACE_OUTER_BOUND ( 'NONE', #10, .T. ) ;
#249 = AXIS2_PLACEMENT_3D ( 'NONE', #117, #321, #119 ) ;
#250 = DIRECTION ( 'NONE',  ( 0.000000000000000000, 0.000000000000000000, 1.000000000000000000 ) ) ;
#251 = FACE_BOUND ( 'NONE', #56, .T. ) ;
#252 = LINE ( 'NONE', #300, #35 ) ;
#253 = APPROVAL_PERSON_ORGANIZATION ( #87, #72, #132 ) ;
#254 = PRODUCT_DEFINITION ( 'UNKNOWN', '', #328, #330 ) ;
#255 = UNCERTAINTY_MEASURE_WITH_UNIT (LENGTH_MEASURE( 1.000000000000000082E-05 ), #46, 'distance_accuracy_value', 'NONE');
#256 = PERSON_AND_ORGANIZATION ( #62, #318 ) ;
#257 = APPLICATION_PROTOCOL_DEFINITION ( 'international standard', 'config_control_design', 1994, #148 ) ;
#258 = APPROVAL_STATUS ( 'not_yet_approved' ) ;
#259 = DIRECTION ( 'NONE',  ( 0.000000000000000000, 0.000000000000000000, 1.000000000000000000 ) ) ;
#260 = COORDINATED_UNIVERSAL_TIME_OFFSET ( 8, 0, .AHEAD. ) ;
#261 = ORIENTED_EDGE ( 'NONE', *, *, #3, .T. ) ;
#262 = ORIENTED_EDGE ( 'NONE', *, *, #20, .T. ) ;
#263 = ORIENTED_EDGE ( 'NONE', *, *, #153, .F. ) ;
#264 = VERTEX_POINT ( 'NONE', #82 ) ;
#265 = AXIS2_PLACEMENT_3D ( 'NONE', #124, #102, #273 ) ;
#266 = DIRECTION ( 'NONE',  ( -1.000000000000000000, -0.000000000000000000, -0.000000000000000000 ) ) ;
#267 = LOCAL_TIME ( 9, 23, 19.00000000000000000, #55 ) ;
#268 = PRODUCT ( 'Q-QZWP-R4-12.7-2020-M', 'Q-QZWP-R4-12.7-2020-M', '', ( #184 ) ) ;
#269 = ADVANCED_FACE ( 'NONE', ( #1 ), #76, .T. ) ;
#270 = CARTESIAN_POINT ( 'NONE',  ( 3.000000000000000888, 0.000000000000000000, 0.000000000000000000 ) ) ;
#271 = CARTESIAN_POINT ( 'NONE',  ( 3.000000000000000888, 0.000000000000000000, 0.000000000000000000 ) ) ;
#272 = DIRECTION ( 'NONE',  ( -1.000000000000000000, 0.000000000000000000, -0.000000000000000000 ) ) ;
#273 = DIRECTION ( 'NONE',  ( 0.000000000000000000, 0.000000000000000000, 1.000000000000000000 ) ) ;
#274 = PLANE ( 'NONE',  #323 ) ;
#275 = EDGE_CURVE ( 'NONE', #315, #88, #317, .T. ) ;
#276 = CIRCLE ( 'NONE', #265, 12.69999999999999929 ) ;
#277 = PERSON_AND_ORGANIZATION ( #62, #318 ) ;
#278 = APPLICATION_CONTEXT ( 'configuration controlled 3d designs of mechanical parts and assemblies' ) ;
#279 = PERSON_AND_ORGANIZATION ( #62, #318 ) ;
#280 = DIRECTION ( 'NONE',  ( 0.000000000000000000, 0.000000000000000000, -1.000000000000000000 ) ) ;
#281 = APPROVAL_DATE_TIME ( #77, #235 ) ;
#282 = EDGE_LOOP ( 'NONE', ( #91, #216 ) ) ;
#283 = DATE_TIME_ROLE ( 'creation_date' ) ;
#284 = ORIENTED_EDGE ( 'NONE', *, *, #333, .T. ) ;
#285 = ORIENTED_EDGE ( 'NONE', *, *, #294, .F. ) ;
#286 = CIRCLE ( 'NONE', #149, 6.349999999999999645 ) ;
#287 = ORIENTED_EDGE ( 'NONE', *, *, #28, .T. ) ;
#288 = ORIENTED_EDGE ( 'NONE', *, *, #240, .T. ) ;
#289 = CC_DESIGN_DATE_AND_TIME_ASSIGNMENT ( #27, #308, ( #311 ) ) ;
#290 = FACE_OUTER_BOUND ( 'NONE', #4, .T. ) ;
#291 = AXIS2_PLACEMENT_3D ( 'NONE', #196, #266, #63 ) ;
#292 = LINE ( 'NONE', #324, #166 ) ;
#293 = DIRECTION ( 'NONE',  ( -1.000000000000000000, -0.000000000000000000, -0.000000000000000000 ) ) ;
#294 = EDGE_CURVE ( 'NONE', #165, #320, #158, .T. ) ;
#295 = CARTESIAN_POINT ( 'NONE',  ( -2.999999999999999556, 0.000000000000000000, 0.000000000000000000 ) ) ;
#296 = CYLINDRICAL_SURFACE ( 'NONE', #310, 6.349999999999999645 ) ;
#297 = FACE_OUTER_BOUND ( 'NONE', #8, .T. ) ;
#298 = CIRCLE ( 'NONE', #291, 6.349999999999999645 ) ;
#299 = AXIS2_PLACEMENT_3D ( 'NONE', #128, #332, #209 ) ;
#300 = CARTESIAN_POINT ( 'NONE',  ( -1.614212418857619014, 0.000000000000000000, 6.349999999999999645 ) ) ;
#301 = CARTESIAN_POINT ( 'NONE',  ( 3.000000000000000888, 0.000000000000000000, 6.349999999999999645 ) ) ;
#302 = CC_DESIGN_PERSON_AND_ORGANIZATION_ASSIGNMENT ( #135, #109, ( #254 ) ) ;
#303 = CARTESIAN_POINT ( 'NONE',  ( -1.614212418857619014, 0.000000000000000000, 0.000000000000000000 ) ) ;
#304 = AXIS2_PLACEMENT_3D ( 'NONE', #39, #145, #225 ) ;
#305 = AXIS2_PLACEMENT_3D ( 'NONE', #162, #22, #24 ) ;
#306 = MANIFOLD_SOLID_BREP ( 'Ðý×', #110 ) ;
#307 = EDGE_CURVE ( 'NONE', #264, #320, #115, .T. ) ;
#308 = DATE_TIME_ROLE ( 'classification_date' ) ;
#309 = DIRECTION ( 'NONE',  ( 1.000000000000000000, 0.000000000000000000, 0.000000000000000000 ) ) ;
#310 = AXIS2_PLACEMENT_3D ( 'NONE', #118, #224, #40 ) ;
#311 = SECURITY_CLASSIFICATION ( '', '', #23 ) ;
#312 = DATE_AND_TIME ( #2, #83 ) ;
#313 = EDGE_LOOP ( 'NONE', ( #191, #59 ) ) ;
#314 = ADVANCED_FACE ( 'NONE', ( #106 ), #50, .F. ) ;
#315 = VERTEX_POINT ( 'NONE', #233 ) ;
#316 = VERTEX_POINT ( 'NONE', #185 ) ;
#317 = CIRCLE ( 'NONE', #194, 6.349999999999999645 ) ;
#318 = ORGANIZATION ( 'UNSPECIFIED', 'UNSPECIFIED', '' ) ;
#319 = ORIENTED_EDGE ( 'NONE', *, *, #90, .F. ) ;
#320 = VERTEX_POINT ( 'NONE', #52 ) ;
#321 = DIRECTION ( 'NONE',  ( -1.000000000000000000, -0.000000000000000000, -0.000000000000000000 ) ) ;
#322 = CARTESIAN_POINT ( 'NONE',  ( -1.500000000000000444, 0.000000000000000000, 0.000000000000000000 ) ) ;
#323 = AXIS2_PLACEMENT_3D ( 'NONE', #143, #176, #42 ) ;
#324 = CARTESIAN_POINT ( 'NONE',  ( -1.614212418857619014, 1.555301434917138433E-15, -12.69999999999999929 ) ) ;
#325 = CARTESIAN_POINT ( 'NONE',  ( 3.000000000000000000, 0.000000000000000000, 0.000000000000000000 ) ) ;
#326 = CARTESIAN_POINT ( 'NONE',  ( -1.614212418857619014, 7.776507174585692163E-16, -6.349999999999999645 ) ) ;
#327 = VECTOR ( 'NONE', #61, 1000.000000000000000 ) ;
#328 = PRODUCT_DEFINITION_FORMATION_WITH_SPECIFIED_SOURCE ( 'ANY', '', #268, .NOT_KNOWN. ) ;
#329 = FACE_BOUND ( 'NONE', #137, .T. ) ;
#330 = DESIGN_CONTEXT ( 'detailed design', #148, 'design' ) ;
#331 =( NAMED_UNIT ( * ) SI_UNIT ( $, .STERADIAN. ) SOLID_ANGLE_UNIT ( ) );
#332 = DIRECTION ( 'NONE',  ( 0.000000000000000000, 0.000000000000000000, 1.000000000000000000 ) ) ;
#333 = EDGE_CURVE ( 'NONE', #163, #114, #199, .T. ) ;
#334 = COORDINATED_UNIVERSAL_TIME_OFFSET ( 8, 0, .AHEAD. ) ;
#335 = CARTESIAN_POINT ( 'NONE',  ( -1.614212418857619014, 0.000000000000000000, 6.349999999999999645 ) ) ;
ENDSEC;
END-ISO-10303-21;
